ISO-10303-21;
HEADER;
FILE_DESCRIPTION (( 'STEP AP203' ),
    '1' );
FILE_NAME ('38-0083.STEP',
    '2020-01-02T22:55:17',
    ( '' ),
    ( '' ),
    'SwSTEP 2.0',
    'SolidWorks 2019',
    '' );
FILE_SCHEMA (( 'CONFIG_CONTROL_DESIGN' ));
ENDSEC;

DATA;
#1 = DIRECTION ( 'NONE',  ( -1.000000000000000000, 0.0000000000000000000, 0.0000000000000000000 ) ) ;
#2 = LENGTH_MEASURE_WITH_UNIT ( LENGTH_MEASURE( 0.02539999999999999897 ), #78 );
#3 = CONICAL_SURFACE ( 'NONE', #100, 0.4611259842519680463, 0.7853981633974638221 ) ;
#4 = CARTESIAN_POINT ( 'NONE',  ( -0.4921259842519687400, 0.0000000000000000000, -9.968999999999997641 ) ) ;
#5 = APPROVAL_DATE_TIME ( #292, #319 ) ;
#6 = APPROVAL_PERSON_ORGANIZATION ( #165, #258, #272 ) ;
#7 = CC_DESIGN_PERSON_AND_ORGANIZATION_ASSIGNMENT ( #57, #217, ( #91 ) ) ;
#8 = EDGE_CURVE ( 'NONE', #54, #54, #313, .T. ) ;
#9 = PERSON_AND_ORGANIZATION_ROLE ( 'creator' ) ;
#10 = CARTESIAN_POINT ( 'NONE',  ( -0.7812461605159125577, 14.11889006404629043, -10.00000000000000000 ) ) ;
#11 = DATE_AND_TIME ( #300, #23 ) ;
#12 = ORIENTED_EDGE ( 'NONE', *, *, #269, .T. ) ;
#13 = APPLICATION_PROTOCOL_DEFINITION ( 'international standard', 'config_control_design', 1994, #288 ) ;
#14 = EDGE_LOOP ( 'NONE', ( #138 ) ) ;
#15 = AXIS2_PLACEMENT_3D ( 'NONE', #231, #200, #254 ) ;
#16 = PERSON_AND_ORGANIZATION ( #27, #75 ) ;
#17 = EDGE_LOOP ( 'NONE', ( #12 ) ) ;
#18 = DIRECTION ( 'NONE',  ( -0.0000000000000000000, -0.0000000000000000000, -1.000000000000000000 ) ) ;
#19 = FACE_OUTER_BOUND ( 'NONE', #326, .T. ) ;
#20 = ADVANCED_FACE ( 'NONE', ( #245, #321 ), #88, .T. ) ;
#21 = AXIS2_PLACEMENT_3D ( 'NONE', #127, #147, #94 ) ;
#22 = EDGE_CURVE ( 'NONE', #134, #134, #295, .T. ) ;
#23 = LOCAL_TIME ( 17, 55, 17.00000000000000000, #221 ) ;
#24 = CARTESIAN_POINT ( 'NONE',  ( 0.0000000000000000000, 0.0000000000000000000, -11.06250000000000000 ) ) ;
#25 = DIRECTION ( 'NONE',  ( -1.000000000000000000, 0.0000000000000000000, 0.0000000000000000000 ) ) ;
#26 = CARTESIAN_POINT ( 'NONE',  ( -0.7812461605159125577, 14.11889006404629043, 0.0000000000000000000 ) ) ;
#27 = PERSON ( 'UNSPECIFIED', 'UNSPECIFIED', 'UNSPECIFIED', ('UNSPECIFIED'), ('UNSPECIFIED'), ('UNSPECIFIED') ) ;
#28 = CARTESIAN_POINT ( 'NONE',  ( -0.4611259842519669916, 0.0000000000000000000, -10.00000000000000000 ) ) ;
#29 = ADVANCED_FACE ( 'NONE', ( #65, #40 ), #170, .F. ) ;
#30 = VERTEX_POINT ( 'NONE', #74 ) ;
#31 = EDGE_LOOP ( 'NONE', ( #249 ) ) ;
#32 = CC_DESIGN_PERSON_AND_ORGANIZATION_ASSIGNMENT ( #139, #247, ( #137 ) ) ;
#33 = EDGE_LOOP ( 'NONE', ( #220 ) ) ;
#34 = CIRCLE ( 'NONE', #190, 0.09674999999999996103 ) ;
#35 = EDGE_LOOP ( 'NONE', ( #36 ) ) ;
#36 = ORIENTED_EDGE ( 'NONE', *, *, #173, .F. ) ;
#37 = APPROVAL_STATUS ( 'not_yet_approved' ) ;
#38 = DIRECTION ( 'NONE',  ( -1.000000000000000000, 0.0000000000000000000, 0.0000000000000000000 ) ) ;
#39 = CARTESIAN_POINT ( 'NONE',  ( 0.0000000000000000000, 0.0000000000000000000, 0.0000000000000000000 ) ) ;
#40 = FACE_OUTER_BOUND ( 'NONE', #14, .T. ) ;
#41 = CARTESIAN_POINT ( 'NONE',  ( 0.0000000000000000000, 0.0000000000000000000, -0.1030570230503482787 ) ) ;
#42 = ADVANCED_FACE ( 'NONE', ( #240, #223 ), #159, .T. ) ;
#43 = DIRECTION ( 'NONE',  ( -1.000000000000000000, 0.0000000000000000000, 0.0000000000000000000 ) ) ;
#44 = AXIS2_PLACEMENT_3D ( 'NONE', #176, #281, #72 ) ;
#45 = DIRECTION ( 'NONE',  ( 0.0000000000000000000, 0.0000000000000000000, 1.000000000000000000 ) ) ;
#46 = FACE_OUTER_BOUND ( 'NONE', #194, .T. ) ;
#47 = DIRECTION ( 'NONE',  ( -0.0000000000000000000, -0.0000000000000000000, 1.000000000000000000 ) ) ;
#48 = AXIS2_PLACEMENT_3D ( 'NONE', #70, #228, #71 ) ;
#49 = VERTEX_POINT ( 'NONE', #184 ) ;
#50 = CARTESIAN_POINT ( 'NONE',  ( 0.09674999999999998879, 0.0000000000000000000, -0.1030570230503482787 ) ) ;
#51 = ORIENTED_EDGE ( 'NONE', *, *, #311, .F. ) ;
#52 = ADVANCED_FACE ( 'NONE', ( #216, #19 ), #306, .T. ) ;
#53 = VERTEX_POINT ( 'NONE', #154 ) ;
#54 = VERTEX_POINT ( 'NONE', #203 ) ;
#55 = EDGE_CURVE ( 'NONE', #49, #49, #211, .T. ) ;
#56 = DIRECTION ( 'NONE',  ( 1.000000000000000000, 0.0000000000000000000, 0.0000000000000000000 ) ) ;
#57 = PERSON_AND_ORGANIZATION ( #27, #75 ) ;
#58 = ORIENTED_EDGE ( 'NONE', *, *, #210, .T. ) ;
#59 = CLOSED_SHELL ( 'NONE', ( #52, #185, #285, #29, #283, #234, #42, #181, #243, #308, #333, #250, #20 ) ) ;
#60 = EDGE_LOOP ( 'NONE', ( #133 ) ) ;
#61 = AXIS2_PLACEMENT_3D ( 'NONE', #199, #47, #331 ) ;
#62 = EDGE_LOOP ( 'NONE', ( #242 ) ) ;
#63 = PERSON_AND_ORGANIZATION_ROLE ( 'creator' ) ;
#64 = ORIENTED_EDGE ( 'NONE', *, *, #146, .F. ) ;
#65 = FACE_OUTER_BOUND ( 'NONE', #323, .T. ) ;
#66 = CONICAL_SURFACE ( 'NONE', #104, 0.3130000000000007221, 0.7853981633974460586 ) ;
#67 = CC_DESIGN_PERSON_AND_ORGANIZATION_ASSIGNMENT ( #106, #9, ( #91 ) ) ;
#68 = CARTESIAN_POINT ( 'NONE',  ( 0.0000000000000000000, 0.0000000000000000000, 0.0000000000000000000 ) ) ;
#69 = MANIFOLD_SOLID_BREP ( 'Thd Relief', #59 ) ;
#70 = CARTESIAN_POINT ( 'NONE',  ( 0.0000000000000000000, 0.0000000000000000000, -11.00050000000000061 ) ) ;
#71 = DIRECTION ( 'NONE',  ( -1.000000000000000000, 0.0000000000000000000, 0.0000000000000000000 ) ) ;
#72 = DIRECTION ( 'NONE',  ( -1.000000000000000000, 0.0000000000000000000, 0.0000000000000000000 ) ) ;
#73 = CARTESIAN_POINT ( 'NONE',  ( 0.0000000000000000000, 0.0000000000000000000, -0.2500000000000000000 ) ) ;
#74 = CARTESIAN_POINT ( 'NONE',  ( 0.09674999999999996103, 0.0000000000000000000, -0.2500000000000000000 ) ) ;
#75 = ORGANIZATION ( 'UNSPECIFIED', 'UNSPECIFIED', '' ) ;
#76 = CARTESIAN_POINT ( 'NONE',  ( 0.0000000000000000000, 0.0000000000000000000, -10.18750000000000000 ) ) ;
#77 = VERTEX_POINT ( 'NONE', #4 ) ;
#78 =( LENGTH_UNIT ( ) NAMED_UNIT ( * ) SI_UNIT ( $, .METRE. ) );
#79 = FACE_OUTER_BOUND ( 'NONE', #17, .T. ) ;
#80 = DIRECTION ( 'NONE',  ( 1.000000000000000000, 0.0000000000000000000, 0.0000000000000000000 ) ) ;
#81 = APPROVAL_DATE_TIME ( #270, #258 ) ;
#82 = DIRECTION ( 'NONE',  ( -1.000000000000000000, 0.0000000000000000000, 0.0000000000000000000 ) ) ;
#83 = DATE_AND_TIME ( #325, #101 ) ;
#84 = EDGE_CURVE ( 'NONE', #77, #77, #262, .T. ) ;
#85 = AXIS2_PLACEMENT_3D ( 'NONE', #76, #207, #260 ) ;
#86 = APPROVAL_STATUS ( 'not_yet_approved' ) ;
#87 = EDGE_LOOP ( 'NONE', ( #140 ) ) ;
#88 = CYLINDRICAL_SURFACE ( 'NONE', #324, 0.3749999999999999445 ) ;
#89 = EDGE_CURVE ( 'NONE', #232, #232, #119, .T. ) ;
#90 = CARTESIAN_POINT ( 'NONE',  ( 0.0000000000000000000, 0.0000000000000000000, 6.829619984160658046E-17 ) ) ;
#91 = PRODUCT_DEFINITION_FORMATION_WITH_SPECIFIED_SOURCE ( 'ANY', '', #137, .NOT_KNOWN. ) ;
#92 = FACE_OUTER_BOUND ( 'NONE', #189, .T. ) ;
#93 = CARTESIAN_POINT ( 'NONE',  ( 0.0000000000000000000, 0.0000000000000000000, -0.2500000000000000000 ) ) ;
#94 = DIRECTION ( 'NONE',  ( -1.000000000000000000, 0.0000000000000000000, 0.0000000000000000000 ) ) ;
#95 = AXIS2_PLACEMENT_3D ( 'NONE', #90, #148, #197 ) ;
#96 = PLANE ( 'NONE',  #15 ) ;
#97 = APPLICATION_PROTOCOL_DEFINITION ( 'international standard', 'config_control_design', 1994, #277 ) ;
#98 = CARTESIAN_POINT ( 'NONE',  ( 0.0000000000000000000, 0.0000000000000000000, 6.829619984160658046E-17 ) ) ;
#99 = PRODUCT_DEFINITION_SHAPE ( 'NONE', 'NONE',  #206 ) ;
#100 = AXIS2_PLACEMENT_3D ( 'NONE', #68, #334, #43 ) ;
#101 = LOCAL_TIME ( 17, 55, 17.00000000000000000, #168 ) ;
#102 =( NAMED_UNIT ( * ) PLANE_ANGLE_UNIT ( ) SI_UNIT ( $, .RADIAN. ) );
#103 = CARTESIAN_POINT ( 'NONE',  ( 0.0000000000000000000, 0.0000000000000000000, -10.00000000000000000 ) ) ;
#104 = AXIS2_PLACEMENT_3D ( 'NONE', #175, #45, #309 ) ;
#105 = ORIENTED_EDGE ( 'NONE', *, *, #332, .T. ) ;
#106 = PERSON_AND_ORGANIZATION ( #27, #75 ) ;
#107 = DIRECTION ( 'NONE',  ( -1.000000000000000000, 0.0000000000000000000, -0.0000000000000000000 ) ) ;
#108 = COORDINATED_UNIVERSAL_TIME_OFFSET ( 5, 0, .BEHIND. ) ;
#109 = DIMENSIONAL_EXPONENTS ( 1.000000000000000000, 0.0000000000000000000, 0.0000000000000000000, 0.0000000000000000000, 0.0000000000000000000, 0.0000000000000000000, 0.0000000000000000000 ) ;
#110 = EDGE_LOOP ( 'NONE', ( #51 ) ) ;
#111 = CALENDAR_DATE ( 2020, 2, 1 ) ;
#112 = EDGE_LOOP ( 'NONE', ( #271 ) ) ;
#113 = CC_DESIGN_SECURITY_CLASSIFICATION ( #330, ( #91 ) ) ;
#114 = COORDINATED_UNIVERSAL_TIME_OFFSET ( 5, 0, .BEHIND. ) ;
#115 = EDGE_LOOP ( 'NONE', ( #248 ) ) ;
#116 = ADVANCED_BREP_SHAPE_REPRESENTATION ( '38-0083', ( #69, #329 ), #196 ) ;
#117 = DIRECTION ( 'NONE',  ( 1.000000000000000000, 0.0000000000000000000, 0.0000000000000000000 ) ) ;
#118 = FACE_BOUND ( 'NONE', #110, .T. ) ;
#119 = CIRCLE ( 'NONE', #48, 0.3749999999999999445 ) ;
#120 = UNCERTAINTY_MEASURE_WITH_UNIT (LENGTH_MEASURE( 1.000000000000000082E-05 ), #209, 'distance_accuracy_value', 'NONE');
#121 = APPROVAL_PERSON_ORGANIZATION ( #239, #177, #193 ) ;
#122 = DIRECTION ( 'NONE',  ( -1.000000000000000000, 0.0000000000000000000, 0.0000000000000000000 ) ) ;
#123 = EDGE_CURVE ( 'NONE', #30, #30, #34, .T. ) ;
#124 = FACE_OUTER_BOUND ( 'NONE', #142, .T. ) ;
#125 = FACE_OUTER_BOUND ( 'NONE', #62, .T. ) ;
#126 = CIRCLE ( 'NONE', #44, 0.3325000000000000178 ) ;
#127 = CARTESIAN_POINT ( 'NONE',  ( 0.0000000000000000000, 0.0000000000000000000, 0.0000000000000000000 ) ) ;
#128 = CC_DESIGN_DATE_AND_TIME_ASSIGNMENT ( #158, #322, ( #206 ) ) ;
#129 = CARTESIAN_POINT ( 'NONE',  ( -0.3749999999999999445, 0.0000000000000000000, -11.00050000000000061 ) ) ;
#130 = ORIENTED_EDGE ( 'NONE', *, *, #22, .F. ) ;
#131 = VERTEX_POINT ( 'NONE', #235 ) ;
#132 = EDGE_LOOP ( 'NONE', ( #192 ) ) ;
#133 = ORIENTED_EDGE ( 'NONE', *, *, #8, .F. ) ;
#134 = VERTEX_POINT ( 'NONE', #312 ) ;
#135 = PERSON_AND_ORGANIZATION ( #27, #75 ) ;
#136 = CARTESIAN_POINT ( 'NONE',  ( 0.0000000000000000000, 0.0000000000000000000, -10.18750000000000000 ) ) ;
#137 = PRODUCT ( '38-0083', '38-0083', '', ( #244 ) ) ;
#138 = ORIENTED_EDGE ( 'NONE', *, *, #146, .T. ) ;
#139 = PERSON_AND_ORGANIZATION ( #27, #75 ) ;
#140 = ORIENTED_EDGE ( 'NONE', *, *, #89, .F. ) ;
#141 = CIRCLE ( 'NONE', #303, 0.1562500000000000000 ) ;
#142 = EDGE_LOOP ( 'NONE', ( #264 ) ) ;
#143 = DIRECTION ( 'NONE',  ( -0.0000000000000000000, -0.0000000000000000000, 1.000000000000000000 ) ) ;
#144 = DIRECTION ( 'NONE',  ( 1.000000000000000000, 0.0000000000000000000, 0.0000000000000000000 ) ) ;
#145 = DIRECTION ( 'NONE',  ( -0.0000000000000000000, -0.0000000000000000000, 1.000000000000000000 ) ) ;
#146 = EDGE_CURVE ( 'NONE', #286, #286, #265, .T. ) ;
#147 = DIRECTION ( 'NONE',  ( -0.0000000000000000000, -0.0000000000000000000, 1.000000000000000000 ) ) ;
#148 = DIRECTION ( 'NONE',  ( -0.0000000000000000000, -0.0000000000000000000, 1.000000000000000000 ) ) ;
#149 = DIRECTION ( 'NONE',  ( -0.0000000000000000000, -0.0000000000000000000, 1.000000000000000000 ) ) ;
#150 = CC_DESIGN_APPROVAL ( #177, ( #91 ) ) ;
#151 = PLANE ( 'NONE',  #337 ) ;
#152 = FACE_OUTER_BOUND ( 'NONE', #261, .T. ) ;
#153 = EDGE_LOOP ( 'NONE', ( #64 ) ) ;
#154 = CARTESIAN_POINT ( 'NONE',  ( -0.3325000000000000178, 0.0000000000000000000, -10.00000000000000000 ) ) ;
#155 = CONICAL_SURFACE ( 'NONE', #95, 0.1562500000000000000, 0.5235987755982984826 ) ;
#156 = CONICAL_SURFACE ( 'NONE', #279, 0.4921259842519687400, 0.7853981633974450594 ) ;
#157 = VERTEX_POINT ( 'NONE', #287 ) ;
#158 = DATE_AND_TIME ( #320, #266 ) ;
#159 = PLANE ( 'NONE',  #317 ) ;
#160 = CC_DESIGN_PERSON_AND_ORGANIZATION_ASSIGNMENT ( #186, #263, ( #330 ) ) ;
#161 = AXIS2_PLACEMENT_3D ( 'NONE', #26, #202, #278 ) ;
#162 = ORIENTED_EDGE ( 'NONE', *, *, #173, .T. ) ;
#163 = CALENDAR_DATE ( 2020, 2, 1 ) ;
#164 = EDGE_LOOP ( 'NONE', ( #187 ) ) ;
#165 = PERSON_AND_ORGANIZATION ( #27, #75 ) ;
#166 = EDGE_LOOP ( 'NONE', ( #301 ) ) ;
#167 = AXIS2_PLACEMENT_3D ( 'NONE', #267, #143, #117 ) ;
#168 = COORDINATED_UNIVERSAL_TIME_OFFSET ( 5, 0, .BEHIND. ) ;
#169 = CIRCLE ( 'NONE', #230, 0.4921259842519687400 ) ;
#170 = CYLINDRICAL_SURFACE ( 'NONE', #167, 0.09674999999999996103 ) ;
#171 = CARTESIAN_POINT ( 'NONE',  ( 0.0000000000000000000, 0.0000000000000000000, -10.25000000000000000 ) ) ;
#172 = DIRECTION ( 'NONE',  ( 1.000000000000000000, 0.0000000000000000000, 0.0000000000000000000 ) ) ;
#173 = EDGE_CURVE ( 'NONE', #157, #157, #169, .T. ) ;
#174 = CC_DESIGN_DATE_AND_TIME_ASSIGNMENT ( #83, #215, ( #330 ) ) ;
#175 = CARTESIAN_POINT ( 'NONE',  ( 0.0000000000000000000, 0.0000000000000000000, -11.06250000000000000 ) ) ;
#176 = CARTESIAN_POINT ( 'NONE',  ( 0.0000000000000000000, 0.0000000000000000000, -10.00000000000000000 ) ) ;
#177 = APPROVAL ( #219, 'UNSPECIFIED' ) ;
#178 = DIRECTION ( 'NONE',  ( 1.000000000000000000, 0.0000000000000000000, 0.0000000000000000000 ) ) ;
#179 = DIRECTION ( 'NONE',  ( 0.0000000000000000000, 0.0000000000000000000, -1.000000000000000000 ) ) ;
#180 = DIRECTION ( 'NONE',  ( 1.000000000000000000, 0.0000000000000000000, 0.0000000000000000000 ) ) ;
#181 = ADVANCED_FACE ( 'NONE', ( #118, #282 ), #156, .T. ) ;
#182 = ORIENTED_EDGE ( 'NONE', *, *, #210, .F. ) ;
#183 = AXIS2_PLACEMENT_3D ( 'NONE', #299, #195, #38 ) ;
#184 = CARTESIAN_POINT ( 'NONE',  ( -0.3130000000000007221, 0.0000000000000000000, -11.06250000000000000 ) ) ;
#185 = ADVANCED_FACE ( 'NONE', ( #92, #256 ), #198, .F. ) ;
#186 = PERSON_AND_ORGANIZATION ( #27, #75 ) ;
#187 = ORIENTED_EDGE ( 'NONE', *, *, #84, .T. ) ;
#188 = APPROVAL_DATE_TIME ( #11, #177 ) ;
#189 = EDGE_LOOP ( 'NONE', ( #58 ) ) ;
#190 = AXIS2_PLACEMENT_3D ( 'NONE', #93, #149, #178 ) ;
#191 = COORDINATED_UNIVERSAL_TIME_OFFSET ( 5, 0, .BEHIND. ) ;
#192 = ORIENTED_EDGE ( 'NONE', *, *, #55, .F. ) ;
#193 = APPROVAL_ROLE ( '' ) ;
#194 = EDGE_LOOP ( 'NONE', ( #105 ) ) ;
#195 = DIRECTION ( 'NONE',  ( 0.0000000000000000000, 0.0000000000000000000, -1.000000000000000000 ) ) ;
#196 =( GEOMETRIC_REPRESENTATION_CONTEXT ( 3 ) GLOBAL_UNCERTAINTY_ASSIGNED_CONTEXT ( ( #120 ) ) GLOBAL_UNIT_ASSIGNED_CONTEXT ( ( #209, #102, #289 ) ) REPRESENTATION_CONTEXT ( 'NONE', 'WORKASPACE' ) );
#197 = DIRECTION ( 'NONE',  ( 1.000000000000000000, 0.0000000000000000000, 0.0000000000000000000 ) ) ;
#198 = PLANE ( 'NONE',  #161 ) ;
#199 = CARTESIAN_POINT ( 'NONE',  ( 0.0000000000000000000, 0.0000000000000000000, -9.968999999999997641 ) ) ;
#200 = DIRECTION ( 'NONE',  ( 0.0000000000000000000, 0.0000000000000000000, -1.000000000000000000 ) ) ;
#201 = AXIS2_PLACEMENT_3D ( 'NONE', #41, #145, #227 ) ;
#202 = DIRECTION ( 'NONE',  ( 0.0000000000000000000, 0.0000000000000000000, -1.000000000000000000 ) ) ;
#203 = CARTESIAN_POINT ( 'NONE',  ( -0.3749999999999999445, 0.0000000000000000000, -10.18750000000000000 ) ) ;
#204 = DIRECTION ( 'NONE',  ( -0.0000000000000000000, -0.0000000000000000000, 1.000000000000000000 ) ) ;
#205 = APPROVAL_PERSON_ORGANIZATION ( #16, #319, #237 ) ;
#206 = PRODUCT_DEFINITION ( 'UNKNOWN', '', #91, #233 ) ;
#207 = DIRECTION ( 'NONE',  ( 0.0000000000000000000, 0.0000000000000000000, 1.000000000000000000 ) ) ;
#208 = CARTESIAN_POINT ( 'NONE',  ( -0.7321678126411332865, 14.04464178577100775, -11.06250000000000000 ) ) ;
#209 =( CONVERSION_BASED_UNIT ( 'INCH', #2 ) LENGTH_UNIT ( ) NAMED_UNIT ( #109 ) );
#210 = EDGE_CURVE ( 'NONE', #314, #314, #274, .T. ) ;
#211 = CIRCLE ( 'NONE', #252, 0.3130000000000007221 ) ;
#212 = CONICAL_SURFACE ( 'NONE', #238, 0.09674999999999996103, 1.029744258676654090 ) ;
#213 = CC_DESIGN_APPROVAL ( #258, ( #330 ) ) ;
#214 = EDGE_LOOP ( 'NONE', ( #328 ) ) ;
#215 = DATE_TIME_ROLE ( 'classification_date' ) ;
#216 = FACE_OUTER_BOUND ( 'NONE', #164, .T. ) ;
#217 = PERSON_AND_ORGANIZATION_ROLE ( 'design_supplier' ) ;
#218 = EDGE_LOOP ( 'NONE', ( #182 ) ) ;
#219 = APPROVAL_STATUS ( 'not_yet_approved' ) ;
#220 = ORIENTED_EDGE ( 'NONE', *, *, #269, .F. ) ;
#221 = COORDINATED_UNIVERSAL_TIME_OFFSET ( 5, 0, .BEHIND. ) ;
#222 = EDGE_LOOP ( 'NONE', ( #275 ) ) ;
#223 = FACE_BOUND ( 'NONE', #33, .T. ) ;
#224 = CC_DESIGN_PERSON_AND_ORGANIZATION_ASSIGNMENT ( #135, #63, ( #206 ) ) ;
#225 = AXIS2_PLACEMENT_3D ( 'NONE', #103, #179, #1 ) ;
#226 = FACE_OUTER_BOUND ( 'NONE', #35, .T. ) ;
#227 = DIRECTION ( 'NONE',  ( 1.000000000000000000, 0.0000000000000000000, 0.0000000000000000000 ) ) ;
#228 = DIRECTION ( 'NONE',  ( 0.0000000000000000000, 0.0000000000000000000, 1.000000000000000000 ) ) ;
#229 = CARTESIAN_POINT ( 'NONE',  ( 0.0000000000000000000, 0.0000000000000000000, -9.968999999999997641 ) ) ;
#230 = AXIS2_PLACEMENT_3D ( 'NONE', #251, #280, #122 ) ;
#231 = CARTESIAN_POINT ( 'NONE',  ( 0.0000000000000000000, 0.0000000000000000000, -10.18750000000000000 ) ) ;
#232 = VERTEX_POINT ( 'NONE', #129 ) ;
#233 = DESIGN_CONTEXT ( 'detailed design', #288, 'design' ) ;
#234 = ADVANCED_FACE ( 'NONE', ( #226, #310 ), #3, .T. ) ;
#235 = CARTESIAN_POINT ( 'NONE',  ( 0.1562500000000000000, 0.0000000000000000000, 6.829619984160658046E-17 ) ) ;
#236 = CYLINDRICAL_SURFACE ( 'NONE', #85, 0.3325000000000000178 ) ;
#237 = APPROVAL_ROLE ( '' ) ;
#238 = AXIS2_PLACEMENT_3D ( 'NONE', #73, #284, #180 ) ;
#239 = PERSON_AND_ORGANIZATION ( #27, #75 ) ;
#240 = FACE_OUTER_BOUND ( 'NONE', #31, .T. ) ;
#241 = DIRECTION ( 'NONE',  ( 0.0000000000000000000, 0.0000000000000000000, 1.000000000000000000 ) ) ;
#242 = ORIENTED_EDGE ( 'NONE', *, *, #123, .T. ) ;
#243 = ADVANCED_FACE ( 'NONE', ( #124, #253 ), #96, .F. ) ;
#244 = MECHANICAL_CONTEXT ( 'NONE', #277, 'mechanical' ) ;
#245 = FACE_OUTER_BOUND ( 'NONE', #60, .T. ) ;
#246 = LOCAL_TIME ( 17, 55, 17.00000000000000000, #191 ) ;
#247 = PERSON_AND_ORGANIZATION_ROLE ( 'design_owner' ) ;
#248 = ORIENTED_EDGE ( 'NONE', *, *, #84, .F. ) ;
#249 = ORIENTED_EDGE ( 'NONE', *, *, #311, .T. ) ;
#250 = ADVANCED_FACE ( 'NONE', ( #255, #307 ), #66, .T. ) ;
#251 = CARTESIAN_POINT ( 'NONE',  ( 0.0000000000000000000, 0.0000000000000000000, -0.03099999999999974998 ) ) ;
#252 = AXIS2_PLACEMENT_3D ( 'NONE', #24, #305, #25 ) ;
#253 = FACE_BOUND ( 'NONE', #222, .T. ) ;
#254 = DIRECTION ( 'NONE',  ( -1.000000000000000000, 0.0000000000000000000, -0.0000000000000000000 ) ) ;
#255 = FACE_OUTER_BOUND ( 'NONE', #87, .T. ) ;
#256 = FACE_BOUND ( 'NONE', #214, .T. ) ;
#257 = CARTESIAN_POINT ( 'NONE',  ( -0.4611259842519680463, 0.0000000000000000000, 0.0000000000000000000 ) ) ;
#258 = APPROVAL ( #86, 'UNSPECIFIED' ) ;
#259 = FACE_OUTER_BOUND ( 'NONE', #112, .T. ) ;
#260 = DIRECTION ( 'NONE',  ( 1.000000000000000000, 0.0000000000000000000, 0.0000000000000000000 ) ) ;
#261 = EDGE_LOOP ( 'NONE', ( #130 ) ) ;
#262 = CIRCLE ( 'NONE', #61, 0.4921259842519687400 ) ;
#263 = PERSON_AND_ORGANIZATION_ROLE ( 'classification_officer' ) ;
#264 = ORIENTED_EDGE ( 'NONE', *, *, #8, .T. ) ;
#265 = CIRCLE ( 'NONE', #201, 0.09674999999999998879 ) ;
#266 = LOCAL_TIME ( 17, 55, 17.00000000000000000, #108 ) ;
#267 = CARTESIAN_POINT ( 'NONE',  ( 0.0000000000000000000, 0.0000000000000000000, 0.0000000000000000000 ) ) ;
#268 = PRODUCT_RELATED_PRODUCT_CATEGORY ( 'detail', '', ( #137 ) ) ;
#269 = EDGE_CURVE ( 'NONE', #53, #53, #126, .T. ) ;
#270 = DATE_AND_TIME ( #163, #246 ) ;
#271 = ORIENTED_EDGE ( 'NONE', *, *, #55, .T. ) ;
#272 = APPROVAL_ROLE ( '' ) ;
#273 = CARTESIAN_POINT ( 'NONE',  ( 0.0000000000000000000, 0.0000000000000000000, 1.606900160246429898 ) ) ;
#274 = CIRCLE ( 'NONE', #21, 0.4611259842519680463 ) ;
#275 = ORIENTED_EDGE ( 'NONE', *, *, #22, .T. ) ;
#276 = DIRECTION ( 'NONE',  ( -0.0000000000000000000, -0.0000000000000000000, 1.000000000000000000 ) ) ;
#277 = APPLICATION_CONTEXT ( 'configuration controlled 3d designs of mechanical parts and assemblies' ) ;
#278 = DIRECTION ( 'NONE',  ( -1.000000000000000000, 0.0000000000000000000, -0.0000000000000000000 ) ) ;
#279 = AXIS2_PLACEMENT_3D ( 'NONE', #229, #335, #172 ) ;
#280 = DIRECTION ( 'NONE',  ( 0.0000000000000000000, 0.0000000000000000000, -1.000000000000000000 ) ) ;
#281 = DIRECTION ( 'NONE',  ( 0.0000000000000000000, 0.0000000000000000000, -1.000000000000000000 ) ) ;
#282 = FACE_OUTER_BOUND ( 'NONE', #115, .T. ) ;
#283 = ADVANCED_FACE ( 'NONE', ( #338, #46 ), #155, .F. ) ;
#284 = DIRECTION ( 'NONE',  ( -0.0000000000000000000, -0.0000000000000000000, 1.000000000000000000 ) ) ;
#285 = ADVANCED_FACE ( 'NONE', ( #125 ), #212, .F. ) ;
#286 = VERTEX_POINT ( 'NONE', #50 ) ;
#287 = CARTESIAN_POINT ( 'NONE',  ( -0.4921259842519687400, 0.0000000000000000000, -0.03099999999999974998 ) ) ;
#288 = APPLICATION_CONTEXT ( 'configuration controlled 3d designs of mechanical parts and assemblies' ) ;
#289 =( NAMED_UNIT ( * ) SI_UNIT ( $, .STERADIAN. ) SOLID_ANGLE_UNIT ( ) );
#290 = CIRCLE ( 'NONE', #225, 0.4611259842519669916 ) ;
#291 = VERTEX_POINT ( 'NONE', #28 ) ;
#292 = DATE_AND_TIME ( #111, #296 ) ;
#293 = DIRECTION ( 'NONE',  ( -0.0000000000000000000, -0.0000000000000000000, 1.000000000000000000 ) ) ;
#294 = DIRECTION ( 'NONE',  ( 0.0000000000000000000, 0.0000000000000000000, -1.000000000000000000 ) ) ;
#295 = CIRCLE ( 'NONE', #183, 0.3325000000000000178 ) ;
#296 = LOCAL_TIME ( 17, 55, 17.00000000000000000, #114 ) ;
#297 = SHAPE_DEFINITION_REPRESENTATION ( #99, #116 ) ;
#298 = DIRECTION ( 'NONE',  ( -1.000000000000000000, 0.0000000000000000000, 0.0000000000000000000 ) ) ;
#299 = CARTESIAN_POINT ( 'NONE',  ( 0.0000000000000000000, 0.0000000000000000000, -10.18750000000000000 ) ) ;
#300 = CALENDAR_DATE ( 2020, 2, 1 ) ;
#301 = ORIENTED_EDGE ( 'NONE', *, *, #89, .T. ) ;
#302 = AXIS2_PLACEMENT_3D ( 'NONE', #171, #276, #144 ) ;
#303 = AXIS2_PLACEMENT_3D ( 'NONE', #98, #204, #56 ) ;
#304 = CC_DESIGN_APPROVAL ( #319, ( #206 ) ) ;
#305 = DIRECTION ( 'NONE',  ( 0.0000000000000000000, 0.0000000000000000000, -1.000000000000000000 ) ) ;
#306 = CYLINDRICAL_SURFACE ( 'NONE', #302, 0.4921259842519687400 ) ;
#307 = FACE_BOUND ( 'NONE', #132, .T. ) ;
#308 = ADVANCED_FACE ( 'NONE', ( #152, #79 ), #236, .T. ) ;
#309 = DIRECTION ( 'NONE',  ( 1.000000000000000000, 0.0000000000000000000, 0.0000000000000000000 ) ) ;
#310 = FACE_BOUND ( 'NONE', #218, .T. ) ;
#311 = EDGE_CURVE ( 'NONE', #291, #291, #290, .T. ) ;
#312 = CARTESIAN_POINT ( 'NONE',  ( -0.3325000000000000178, 0.0000000000000000000, -10.18750000000000000 ) ) ;
#313 = CIRCLE ( 'NONE', #336, 0.3749999999999999445 ) ;
#314 = VERTEX_POINT ( 'NONE', #257 ) ;
#315 = DIRECTION ( 'NONE',  ( -1.000000000000000000, 0.0000000000000000000, -0.0000000000000000000 ) ) ;
#316 = DIRECTION ( 'NONE',  ( 0.0000000000000000000, 0.0000000000000000000, -1.000000000000000000 ) ) ;
#317 = AXIS2_PLACEMENT_3D ( 'NONE', #10, #294, #107 ) ;
#318 = SECURITY_CLASSIFICATION_LEVEL ( 'unclassified' ) ;
#319 = APPROVAL ( #37, 'UNSPECIFIED' ) ;
#320 = CALENDAR_DATE ( 2020, 2, 1 ) ;
#321 = FACE_OUTER_BOUND ( 'NONE', #166, .T. ) ;
#322 = DATE_TIME_ROLE ( 'creation_date' ) ;
#323 = EDGE_LOOP ( 'NONE', ( #327 ) ) ;
#324 = AXIS2_PLACEMENT_3D ( 'NONE', #273, #18, #82 ) ;
#325 = CALENDAR_DATE ( 2020, 2, 1 ) ;
#326 = EDGE_LOOP ( 'NONE', ( #162 ) ) ;
#327 = ORIENTED_EDGE ( 'NONE', *, *, #123, .F. ) ;
#328 = ORIENTED_EDGE ( 'NONE', *, *, #332, .F. ) ;
#329 = AXIS2_PLACEMENT_3D ( 'NONE', #39, #241, #80 ) ;
#330 = SECURITY_CLASSIFICATION ( '', '', #318 ) ;
#331 = DIRECTION ( 'NONE',  ( -1.000000000000000000, 0.0000000000000000000, 0.0000000000000000000 ) ) ;
#332 = EDGE_CURVE ( 'NONE', #131, #131, #141, .T. ) ;
#333 = ADVANCED_FACE ( 'NONE', ( #259 ), #151, .T. ) ;
#334 = DIRECTION ( 'NONE',  ( 0.0000000000000000000, 0.0000000000000000000, -1.000000000000000000 ) ) ;
#335 = DIRECTION ( 'NONE',  ( -0.0000000000000000000, -0.0000000000000000000, 1.000000000000000000 ) ) ;
#336 = AXIS2_PLACEMENT_3D ( 'NONE', #136, #293, #298 ) ;
#337 = AXIS2_PLACEMENT_3D ( 'NONE', #208, #316, #315 ) ;
#338 = FACE_BOUND ( 'NONE', #153, .T. ) ;
ENDSEC;
END-ISO-10303-21;
